Новости Сайта. Что есть Северное Вече. Группы: статьи, биографии, отчёты с концертов и интервью. Рецензии на альбомы. Мастерская - изготовление народных музыкальных инструментов. Ссылки на ресурсы по теме и дружественные проекты. Форум - Северное Вече - Языческий Металл и Классика. Авторы Сайта и Материалов.

Пишите.Вы хотите, чтобы ваше мнение о прослушанной музыке услышали многие или вы просто хотите написать о понравившейся группе, играющей языческий металл или классику? А может быть, вы видите необходимость поделится своими впечатлениями о коллективе, создающем прекрасную фольк музыку. Тогда напишите свой рассказ о группе, её биографию, интервью с ней и всё будет опубликована на этом, полностью некоммерческом сайте. Форма : Название группы, год основания, название альбомов, затем сам рассказ или впечатления от группы и ваша подпись. Пишите, так из мнений каждого, сложится вся картина великой северной музыки.. Кстати, можете рассказать и собственных группах этого стиля музыки.А если вы побвали на интересном концерте, о нём вы тоже можете всем поведать. Итак, пишите: paganmusic@yandex.ru

 

Mayhem "Deathcrush" ('87 "DEATHCRUSH")
Tabbed by Moriturus

Riff 1 (6x)

E|-----------------------------|-----------------------------|
B|-----------------------------|-----------------------------|
G|-----------------------------|-----------------------------|
D|-----------------------------|------------------8----8-----|
A|---2----2--5----2--9----8----|--2----2--5----2--8----8-----|
E|---0----0--3----0--7----6----|--0----0--3----0-------------|

Riff 2 (8x)

E|--------------------------------------------------------------------|
B|--------------------------------------------------------------------|
G|--------------------------------------------------------------------|
D|--------------------------------------------------------------------|
A|---0-0-0-0-1-1-1-1-0-0-0-0-1-1-1-1-0-0-0-0-1-1-1-1-5-5-5-5-3-3-3-3--|
E|--------------------------------------------------------------------|

Riff 3 (8x)

E|------------------------------------|
B|------------------------------------|
G|------------------------------------|
D|------------------------------------|
A|-------------------7---7---6-6-6-6--|
E|---5-5-5-5-5-5-5-5-5-5-5-5-4-4-4-4--|

Riff 2 (3x)

E|--------------------------------------------------------------------|
B|--------------------------------------------------------------------|
G|--------------------------------------------------------------------|
D|--------------------------------------------------------------------|
A|---0-0-0-0-1-1-1-1-0-0-0-0-1-1-1-1-0-0-0-0-1-1-1-1-5-5-5-5-3-3-3-3--|
E|--------------------------------------------------------------------|

Riff 3 (8x)

E|------------------------------------|
B|------------------------------------|
G|------------------------------------|
D|------------------------------------|
A|-------------------7---7---6-6-6-6--|
E|---5-5-5-5-5-5-5-5-5-5-5-5-4-4-4-4--|

Riff 3 (end)

-----------|
-----------|
-----------|
-----------|
--7--------|
--5--------|

Riff 1 (2x)

E|-----------------------------|-----------------------------|
B|-----------------------------|-----------------------------|
G|-----------------------------|-----------------------------|
D|-----------------------------|------------------8----8-----|
A|---2----2--5----2--9----8----|--2----2--5----2--8----8-----|
E|---0----0--3----0--7----6----|--0----0--3----0-------------|

Riff 2 + Riff 2 (II) (3x)

E|--------------------------------------------------------------------|
B|--------------------------------------------------------------------|
G|--------------------------------------------------------------------|
D|--------------------------------------------------------------------|
A|---0-0-0-0-1-1-1-1-0-0-0-0-1-1-1-1-0-0-0-0-1-1-1-1-5-5-5-5-3-3-3-3--|
E|--------------------------------------------------------------------|

Riff 2 (II)

-----------------------------------------------------------|
-----------------------------------------------------------|
-----------------------------------------------------------|
-----------------------------------------------------------|
--0-0-0-0-1-1-1-1-0-0-0-0-1-1-1-1-0-0-0-0-1-1-1-1----------|
-----------------------------------------------------------|

Riff 2 (2X)

E|--------------------------------------------------------------------|
B|--------------------------------------------------------------------|
G|--------------------------------------------------------------------|
D|--------------------------------------------------------------------|
A|---0-0-0-0-1-1-1-1-0-0-0-0-1-1-1-1-0-0-0-0-1-1-1-1-5-5-5-5-3-3-3-3--|
E|--------------------------------------------------------------------|

Riff 3 (7x)

E|------------------------------------|
B|------------------------------------|
G|------------------------------------|
D|------------------------------------|
A|-------------------7---7---6-6-6-6--|
E|---5-5-5-5-5-5-5-5-5-5-5-5-4-4-4-4--|

Riff 3 (end)

-----------||
-----------||
-----------||
-----------||
--7--------||
--5--------||

Moriturus                          17 октября 2004 года

linia.jpg (9802 bytes)

Pan Wladimir II grandgrandgrandsohn von Franz (c) 2003 Texts, illustrations, photos © Copyright by Pan

Wladimir II grandgrandgrandsohn von Franz 2003-2005

Свежая информация gps навигатор купить у нас.
Используются технологии uCoz